ISO-10303-21;
HEADER;
FILE_DESCRIPTION (( 'STEP AP203' ),
    '1' );
FILE_NAME ('BK7-LPBSC-10-405.STEP',
    '2020-12-22T03:09:55',
    ( '' ),
    ( '' ),
    'SwSTEP 2.0',
    'SolidWorks 2020',
    '' );
FILE_SCHEMA (( 'CONFIG_CONTROL_DESIGN' ));
ENDSEC;

DATA;
#1 = CC_DESIGN_PERSON_AND_ORGANIZATION_ASSIGNMENT ( #99, #94, ( #163 ) ) ;
#2 = DIRECTION ( 'NONE',  ( -1.734723475976807094E-16, -1.000000000000000000, 0.000000000000000000 ) ) ;
#3 = VECTOR ( 'NONE', #178, 1000.000000000000000 ) ;
#4 = FACE_OUTER_BOUND ( 'NONE', #62, .T. ) ;
#5 = VERTEX_POINT ( 'NONE', #97 ) ;
#6 = DIRECTION ( 'NONE',  ( -1.000000000000000000, 1.734723475976807094E-16, 0.000000000000000000 ) ) ;
#7 = CARTESIAN_POINT ( 'NONE',  ( 0.000000000000000000, 0.000000000000000000, 5.000000000000000000 ) ) ;
#8 = ORIENTED_EDGE ( 'NONE', *, *, #298, .F. ) ;
#9 = MANIFOLD_SOLID_BREP ( '¾µÏ', #100 ) ;
#10 = FACE_OUTER_BOUND ( 'NONE', #13, .T. ) ;
#11 = MANIFOLD_SOLID_BREP ( 'Í¹Ì¨-À', #191 ) ;
#12 = CARTESIAN_POINT ( 'NONE',  ( 5.000000000000002665, 5.000000000000000000, -5.000000000000000000 ) ) ;
#13 = EDGE_LOOP ( 'NONE', ( #248, #8, #153, #258 ) ) ;
#14 = APPROVAL_PERSON_ORGANIZATION ( #44, #190, #269 ) ;
#15 = EDGE_CURVE ( 'NONE', #133, #64, #197, .T. ) ;
#16 = CARTESIAN_POINT ( 'NONE',  ( -4.999999999999999112, 5.000000000000001776, 5.000000000000000000 ) ) ;
#17 = CARTESIAN_POINT ( 'NONE',  ( 5.000000000000002665, 5.000000000000000000, 5.000000000000000000 ) ) ;
#18 = CC_DESIGN_PERSON_AND_ORGANIZATION_ASSIGNMENT ( #23, #223, ( #196 ) ) ;
#19 = AXIS2_PLACEMENT_3D ( 'NONE', #111, #136, #206 ) ;
#20 = CALENDAR_DATE ( 2020, 22, 12 ) ;
#21 = SECURITY_CLASSIFICATION_LEVEL ( 'unclassified' ) ;
#22 = PERSON_AND_ORGANIZATION_ROLE ( 'design_supplier' ) ;
#23 = PERSON_AND_ORGANIZATION ( #173, #259 ) ;
#24 = APPROVAL_ROLE ( '' ) ;
#25 = EDGE_CURVE ( 'NONE', #151, #279, #170, .T. ) ;
#26 = VECTOR ( 'NONE', #75, 1000.000000000000000 ) ;
#27 = ORIENTED_EDGE ( 'NONE', *, *, #45, .F. ) ;
#28 = DIRECTION ( 'NONE',  ( -4.857225732735059864E-17, -1.000000000000000000, 0.000000000000000000 ) ) ;
#29 = PLANE ( 'NONE',  #172 ) ;
#30 = ADVANCED_FACE ( 'NONE', ( #144 ), #198, .F. ) ;
#31 = EDGE_LOOP ( 'NONE', ( #52, #80, #207, #230 ) ) ;
#32 = VECTOR ( 'NONE', #182, 1000.000000000000000 ) ;
#33 = PRODUCT_RELATED_PRODUCT_CATEGORY ( 'detail', '', ( #249 ) ) ;
#34 = ORIENTED_EDGE ( 'NONE', *, *, #264, .F. ) ;
#35 = VECTOR ( 'NONE', #63, 1000.000000000000000 ) ;
#36 = CARTESIAN_POINT ( 'NONE',  ( 5.000000000000002665, 5.000000000000000000, 5.000000000000000000 ) ) ;
#37 = UNCERTAINTY_MEASURE_WITH_UNIT (LENGTH_MEASURE( 1.000000000000000082E-05 ), #218, 'distance_accuracy_value', 'NONE');
#38 = ORIENTED_EDGE ( 'NONE', *, *, #142, .F. ) ;
#39 = LINE ( 'NONE', #89, #125 ) ;
#40 = EDGE_CURVE ( 'NONE', #64, #312, #225, .T. ) ;
#41 = LINE ( 'NONE', #188, #317 ) ;
#42 = EDGE_LOOP ( 'NONE', ( #212, #231, #110, #263 ) ) ;
#43 = CARTESIAN_POINT ( 'NONE',  ( 5.000000000000000888, 5.000000000000001776, 5.000000000000000000 ) ) ;
#44 = PERSON_AND_ORGANIZATION ( #173, #259 ) ;
#45 = EDGE_CURVE ( 'NONE', #254, #5, #278, .T. ) ;
#46 = CARTESIAN_POINT ( 'NONE',  ( 0.000000000000000000, 0.000000000000000000, 0.000000000000000000 ) ) ;
#47 = CALENDAR_DATE ( 2020, 22, 12 ) ;
#48 = COORDINATED_UNIVERSAL_TIME_OFFSET ( 8, 0, .AHEAD. ) ;
#49 = ADVANCED_FACE ( 'NONE', ( #123 ), #58, .F. ) ;
#50 = DIRECTION ( 'NONE',  ( 1.000000000000000000, -2.220446049250313081E-16, 0.000000000000000000 ) ) ;
#51 = ADVANCED_FACE ( 'NONE', ( #10 ), #127, .F. ) ;
#52 = ORIENTED_EDGE ( 'NONE', *, *, #15, .F. ) ;
#53 = APPROVAL_DATE_TIME ( #247, #73 ) ;
#54 = DIRECTION ( 'NONE',  ( 1.000000000000000000, 0.000000000000000000, 0.000000000000000000 ) ) ;
#55 = CARTESIAN_POINT ( 'NONE',  ( 5.000000000000002665, 5.000000000000000000, 5.000000000000000000 ) ) ;
#56 = CARTESIAN_POINT ( 'NONE',  ( 5.000000000000002665, 5.000000000000000000, 5.000000000000000000 ) ) ;
#57 = ORIENTED_EDGE ( 'NONE', *, *, #146, .T. ) ;
#58 = PLANE ( 'NONE',  #124 ) ;
#59 = PLANE ( 'NONE',  #134 ) ;
#60 = ORIENTED_EDGE ( 'NONE', *, *, #91, .F. ) ;
#61 = DIRECTION ( 'NONE',  ( -0.000000000000000000, -0.000000000000000000, -1.000000000000000000 ) ) ;
#62 = EDGE_LOOP ( 'NONE', ( #174, #119, #57 ) ) ;
#63 = DIRECTION ( 'NONE',  ( 2.220446049250313081E-16, 1.000000000000000000, 0.000000000000000000 ) ) ;
#64 = VERTEX_POINT ( 'NONE', #226 ) ;
#65 = AXIS2_PLACEMENT_3D ( 'NONE', #56, #6, #2 ) ;
#66 = LINE ( 'NONE', #209, #292 ) ;
#67 = LOCAL_TIME ( 11, 9, 55.00000000000000000, #140 ) ;
#68 = DATE_TIME_ROLE ( 'creation_date' ) ;
#69 = CC_DESIGN_APPROVAL ( #73, ( #163 ) ) ;
#70 = PERSON_AND_ORGANIZATION ( #173, #259 ) ;
#71 = APPROVAL_DATE_TIME ( #143, #168 ) ;
#72 = COORDINATED_UNIVERSAL_TIME_OFFSET ( 8, 0, .AHEAD. ) ;
#73 = APPROVAL ( #167, 'UNSPECIFIED' ) ;
#74 = APPROVAL_PERSON_ORGANIZATION ( #321, #168, #294 ) ;
#75 = DIRECTION ( 'NONE',  ( -0.7071067811865475727, -0.7071067811865474617, 0.000000000000000000 ) ) ;
#76 = DIRECTION ( 'NONE',  ( 2.220446049250313081E-16, 1.000000000000000000, 0.000000000000000000 ) ) ;
#77 = LOCAL_TIME ( 11, 9, 55.00000000000000000, #48 ) ;
#78 = CC_DESIGN_PERSON_AND_ORGANIZATION_ASSIGNMENT ( #70, #165, ( #314 ) ) ;
#79 = DIRECTION ( 'NONE',  ( 0.7071067811865474617, -0.7071067811865475727, 0.000000000000000000 ) ) ;
#80 = ORIENTED_EDGE ( 'NONE', *, *, #149, .F. ) ;
#81 = DIRECTION ( 'NONE',  ( 0.000000000000000000, -0.000000000000000000, 1.000000000000000000 ) ) ;
#82 = DESIGN_CONTEXT ( 'detailed design', #186, 'design' ) ;
#83 = ORIENTED_EDGE ( 'NONE', *, *, #298, .T. ) ;
#84 = AXIS2_PLACEMENT_3D ( 'NONE', #306, #81, #177 ) ;
#85 = DIRECTION ( 'NONE',  ( -0.000000000000000000, -0.000000000000000000, -1.000000000000000000 ) ) ;
#86 = ORIENTED_EDGE ( 'NONE', *, *, #217, .F. ) ;
#87 = LINE ( 'NONE', #289, #3 ) ;
#88 = EDGE_LOOP ( 'NONE', ( #180, #187, #285, #83 ) ) ;
#89 = CARTESIAN_POINT ( 'NONE',  ( -5.000000000000000888, -4.999999999999998224, 5.000000000000000000 ) ) ;
#90 = APPLICATION_PROTOCOL_DEFINITION ( 'international standard', 'config_control_design', 1994, #164 ) ;
#91 = EDGE_CURVE ( 'NONE', #201, #208, #202, .T. ) ;
#92 = PERSON_AND_ORGANIZATION ( #173, #259 ) ;
#93 =( NAMED_UNIT ( * ) PLANE_ANGLE_UNIT ( ) SI_UNIT ( $, .RADIAN. ) );
#94 = PERSON_AND_ORGANIZATION_ROLE ( 'creator' ) ;
#95 = COORDINATED_UNIVERSAL_TIME_OFFSET ( 8, 0, .AHEAD. ) ;
#96 = APPROVAL_STATUS ( 'not_yet_approved' ) ;
#97 = CARTESIAN_POINT ( 'NONE',  ( 5.000000000000000888, 5.000000000000001776, 5.000000000000000000 ) ) ;
#98 = ADVANCED_FACE ( 'NONE', ( #148 ), #29, .F. ) ;
#99 = PERSON_AND_ORGANIZATION ( #173, #259 ) ;
#100 = CLOSED_SHELL ( 'NONE', ( #98, #305, #30, #291, #135 ) ) ;
#101 = DIRECTION ( 'NONE',  ( 0.7071067811865475727, 0.7071067811865474617, 0.000000000000000000 ) ) ;
#102 = DIRECTION ( 'NONE',  ( -0.000000000000000000, 0.000000000000000000, -1.000000000000000000 ) ) ;
#103 = CC_DESIGN_SECURITY_CLASSIFICATION ( #196, ( #163 ) ) ;
#104 = ORIENTED_EDGE ( 'NONE', *, *, #179, .T. ) ;
#105 = CARTESIAN_POINT ( 'NONE',  ( 5.000000000000000888, 5.000000000000001776, 5.000000000000000000 ) ) ;
#106 = DIRECTION ( 'NONE',  ( 0.000000000000000000, -0.000000000000000000, 1.000000000000000000 ) ) ;
#107 = DIRECTION ( 'NONE',  ( -0.7071067811865474617, 0.7071067811865475727, 0.000000000000000000 ) ) ;
#108 = CARTESIAN_POINT ( 'NONE',  ( 5.000000000000000888, -5.000000000000000000, -5.000000000000000000 ) ) ;
#109 = CARTESIAN_POINT ( 'NONE',  ( 0.000000000000000000, 0.000000000000000000, 5.000000000000000000 ) ) ;
#110 = ORIENTED_EDGE ( 'NONE', *, *, #217, .T. ) ;
#111 = CARTESIAN_POINT ( 'NONE',  ( 0.000000000000000000, 0.000000000000000000, -5.000000000000000000 ) ) ;
#112 = FACE_OUTER_BOUND ( 'NONE', #42, .T. ) ;
#113 = CC_DESIGN_PERSON_AND_ORGANIZATION_ASSIGNMENT ( #92, #162, ( #249 ) ) ;
#114 = DATE_AND_TIME ( #20, #318 ) ;
#115 = ADVANCED_BREP_SHAPE_REPRESENTATION ( 'BK7-LPBSC-10-405', ( #11, #9, #121 ), #183 ) ;
#116 = DATE_AND_TIME ( #117, #222 ) ;
#117 = CALENDAR_DATE ( 2020, 22, 12 ) ;
#118 = DATE_AND_TIME ( #243, #77 ) ;
#119 = ORIENTED_EDGE ( 'NONE', *, *, #25, .T. ) ;
#120 = VECTOR ( 'NONE', #280, 1000.000000000000000 ) ;
#121 = AXIS2_PLACEMENT_3D ( 'NONE', #46, #316, #239 ) ;
#122 = ORIENTED_EDGE ( 'NONE', *, *, #91, .T. ) ;
#123 = FACE_OUTER_BOUND ( 'NONE', #88, .T. ) ;
#124 = AXIS2_PLACEMENT_3D ( 'NONE', #36, #79, #101 ) ;
#125 = VECTOR ( 'NONE', #102, 1000.000000000000000 ) ;
#126 = VERTEX_POINT ( 'NONE', #55 ) ;
#127 = PLANE ( 'NONE',  #65 ) ;
#128 = DIRECTION ( 'NONE',  ( 1.000000000000000000, 0.000000000000000000, 0.000000000000000000 ) ) ;
#129 = EDGE_LOOP ( 'NONE', ( #238, #27, #86 ) ) ;
#130 = CARTESIAN_POINT ( 'NONE',  ( -4.999999999999999112, -5.000000000000000000, 5.000000000000000000 ) ) ;
#131 = ORIENTED_EDGE ( 'NONE', *, *, #25, .F. ) ;
#132 = LINE ( 'NONE', #150, #274 ) ;
#133 = VERTEX_POINT ( 'NONE', #302 ) ;
#134 = AXIS2_PLACEMENT_3D ( 'NONE', #7, #106, #271 ) ;
#135 = ADVANCED_FACE ( 'NONE', ( #255 ), #205, .F. ) ;
#136 = DIRECTION ( 'NONE',  ( -0.000000000000000000, 0.000000000000000000, 1.000000000000000000 ) ) ;
#137 = APPROVAL_STATUS ( 'not_yet_approved' ) ;
#138 = LOCAL_TIME ( 11, 9, 55.00000000000000000, #72 ) ;
#139 = DIRECTION ( 'NONE',  ( -0.000000000000000000, -0.000000000000000000, -1.000000000000000000 ) ) ;
#140 = COORDINATED_UNIVERSAL_TIME_OFFSET ( 8, 0, .AHEAD. ) ;
#141 = CARTESIAN_POINT ( 'NONE',  ( 5.000000000000000888, 5.000000000000001776, 5.000000000000000000 ) ) ;
#142 = EDGE_CURVE ( 'NONE', #156, #201, #283, .T. ) ;
#143 = DATE_AND_TIME ( #47, #138 ) ;
#144 = FACE_OUTER_BOUND ( 'NONE', #176, .T. ) ;
#145 = VECTOR ( 'NONE', #54, 1000.000000000000000 ) ;
#146 = EDGE_CURVE ( 'NONE', #279, #126, #87, .T. ) ;
#147 = ORIENTED_EDGE ( 'NONE', *, *, #179, .F. ) ;
#148 = FACE_OUTER_BOUND ( 'NONE', #31, .T. ) ;
#149 = EDGE_CURVE ( 'NONE', #5, #133, #185, .T. ) ;
#150 = CARTESIAN_POINT ( 'NONE',  ( 5.000000000000002665, 5.000000000000000000, -5.000000000000000000 ) ) ;
#151 = VERTEX_POINT ( 'NONE', #130 ) ;
#152 = PLANE ( 'NONE',  #257 ) ;
#153 = ORIENTED_EDGE ( 'NONE', *, *, #146, .F. ) ;
#154 = EDGE_CURVE ( 'NONE', #279, #208, #66, .T. ) ;
#155 = CARTESIAN_POINT ( 'NONE',  ( -5.000000000000000888, -4.999999999999998224, 5.000000000000000000 ) ) ;
#156 = VERTEX_POINT ( 'NONE', #12 ) ;
#157 = CARTESIAN_POINT ( 'NONE',  ( -4.999999999999999112, -5.000000000000000000, 5.000000000000000000 ) ) ;
#158 = ORIENTED_EDGE ( 'NONE', *, *, #214, .T. ) ;
#159 = CARTESIAN_POINT ( 'NONE',  ( -5.000000000000000888, -4.999999999999998224, 5.000000000000000000 ) ) ;
#160 = CARTESIAN_POINT ( 'NONE',  ( -4.999999999999999112, -5.000000000000000000, 5.000000000000000000 ) ) ;
#161 =( NAMED_UNIT ( * ) SI_UNIT ( $, .STERADIAN. ) SOLID_ANGLE_UNIT ( ) );
#162 = PERSON_AND_ORGANIZATION_ROLE ( 'design_owner' ) ;
#163 = PRODUCT_DEFINITION_FORMATION_WITH_SPECIFIED_SOURCE ( 'ANY', '', #249, .NOT_KNOWN. ) ;
#164 = APPLICATION_CONTEXT ( 'configuration controlled 3d designs of mechanical parts and assemblies' ) ;
#165 = PERSON_AND_ORGANIZATION_ROLE ( 'creator' ) ;
#166 = PLANE ( 'NONE',  #216 ) ;
#167 = APPROVAL_STATUS ( 'not_yet_approved' ) ;
#168 = APPROVAL ( #96, 'UNSPECIFIED' ) ;
#169 = EDGE_CURVE ( 'NONE', #254, #312, #307, .T. ) ;
#170 = LINE ( 'NONE', #275, #145 ) ;
#171 = ADVANCED_FACE ( 'NONE', ( #4 ), #152, .T. ) ;
#172 = AXIS2_PLACEMENT_3D ( 'NONE', #105, #107, #232 ) ;
#173 = PERSON ( 'UNSPECIFIED', 'UNSPECIFIED', 'UNSPECIFIED', ('UNSPECIFIED'), ('UNSPECIFIED'), ('UNSPECIFIED') ) ;
#174 = ORIENTED_EDGE ( 'NONE', *, *, #194, .T. ) ;
#175 = DIRECTION ( 'NONE',  ( 1.000000000000000000, -4.857225732735059864E-17, 0.000000000000000000 ) ) ;
#176 = EDGE_LOOP ( 'NONE', ( #147, #210, #304, #282 ) ) ;
#177 = DIRECTION ( 'NONE',  ( 2.220446049250313081E-16, 1.000000000000000000, 0.000000000000000000 ) ) ;
#178 = DIRECTION ( 'NONE',  ( 1.734723475976807094E-16, 1.000000000000000000, -0.000000000000000000 ) ) ;
#179 = EDGE_CURVE ( 'NONE', #312, #133, #41, .T. ) ;
#180 = ORIENTED_EDGE ( 'NONE', *, *, #142, .T. ) ;
#181 = VECTOR ( 'NONE', #76, 1000.000000000000000 ) ;
#182 = DIRECTION ( 'NONE',  ( -0.7071067811865475727, -0.7071067811865474617, 0.000000000000000000 ) ) ;
#183 =( GEOMETRIC_REPRESENTATION_CONTEXT ( 3 ) GLOBAL_UNCERTAINTY_ASSIGNED_CONTEXT ( ( #37 ) ) GLOBAL_UNIT_ASSIGNED_CONTEXT ( ( #218, #93, #161 ) ) REPRESENTATION_CONTEXT ( 'NONE', 'WORKASPACE' ) );
#184 = ORIENTED_EDGE ( 'NONE', *, *, #40, .T. ) ;
#185 = LINE ( 'NONE', #313, #250 ) ;
#186 = APPLICATION_CONTEXT ( 'configuration controlled 3d designs of mechanical parts and assemblies' ) ;
#187 = ORIENTED_EDGE ( 'NONE', *, *, #214, .F. ) ;
#188 = CARTESIAN_POINT ( 'NONE',  ( 5.000000000000000888, 5.000000000000001776, -5.000000000000000000 ) ) ;
#189 = DIRECTION ( 'NONE',  ( 0.000000000000000000, 1.000000000000000000, 0.000000000000000000 ) ) ;
#190 = APPROVAL ( #137, 'UNSPECIFIED' ) ;
#191 = CLOSED_SHELL ( 'NONE', ( #49, #315, #51, #171, #253 ) ) ;
#192 = PERSON_AND_ORGANIZATION ( #173, #259 ) ;
#193 = LINE ( 'NONE', #17, #301 ) ;
#194 = EDGE_CURVE ( 'NONE', #126, #151, #211, .T. ) ;
#195 = AXIS2_PLACEMENT_3D ( 'NONE', #297, #28, #199 ) ;
#196 = SECURITY_CLASSIFICATION ( '', '', #21 ) ;
#197 = LINE ( 'NONE', #296, #26 ) ;
#198 = PLANE ( 'NONE',  #195 ) ;
#199 = DIRECTION ( 'NONE',  ( -1.000000000000000000, 4.857225732735059864E-17, 0.000000000000000000 ) ) ;
#200 = VECTOR ( 'NONE', #175, 1000.000000000000000 ) ;
#201 = VERTEX_POINT ( 'NONE', #256 ) ;
#202 = LINE ( 'NONE', #251, #120 ) ;
#203 = CARTESIAN_POINT ( 'NONE',  ( 5.000000000000000888, -5.000000000000000000, 5.000000000000000000 ) ) ;
#204 = EDGE_LOOP ( 'NONE', ( #38, #34, #60 ) ) ;
#205 = PLANE ( 'NONE',  #84 ) ;
#206 = DIRECTION ( 'NONE',  ( 1.000000000000000000, 0.000000000000000000, 0.000000000000000000 ) ) ;
#207 = ORIENTED_EDGE ( 'NONE', *, *, #246, .T. ) ;
#208 = VERTEX_POINT ( 'NONE', #108 ) ;
#209 = CARTESIAN_POINT ( 'NONE',  ( 5.000000000000000888, -5.000000000000000000, 5.000000000000000000 ) ) ;
#210 = ORIENTED_EDGE ( 'NONE', *, *, #169, .F. ) ;
#211 = LINE ( 'NONE', #213, #32 ) ;
#212 = ORIENTED_EDGE ( 'NONE', *, *, #40, .F. ) ;
#213 = CARTESIAN_POINT ( 'NONE',  ( 5.000000000000002665, 5.000000000000000000, 5.000000000000000000 ) ) ;
#214 = EDGE_CURVE ( 'NONE', #151, #201, #311, .T. ) ;
#215 = MECHANICAL_CONTEXT ( 'NONE', #164, 'mechanical' ) ;
#216 = AXIS2_PLACEMENT_3D ( 'NONE', #293, #50, #290 ) ;
#217 = EDGE_CURVE ( 'NONE', #227, #254, #288, .T. ) ;
#218 =( LENGTH_UNIT ( ) NAMED_UNIT ( * ) SI_UNIT ( .MILLI., .METRE. ) );
#219 = APPROVAL_DATE_TIME ( #114, #190 ) ;
#220 = FACE_OUTER_BOUND ( 'NONE', #234, .T. ) ;
#221 = PERSON_AND_ORGANIZATION ( #173, #259 ) ;
#222 = LOCAL_TIME ( 11, 9, 55.00000000000000000, #95 ) ;
#223 = PERSON_AND_ORGANIZATION_ROLE ( 'classification_officer' ) ;
#224 = CC_DESIGN_DATE_AND_TIME_ASSIGNMENT ( #116, #68, ( #314 ) ) ;
#225 = LINE ( 'NONE', #299, #181 ) ;
#226 = CARTESIAN_POINT ( 'NONE',  ( -5.000000000000000888, -4.999999999999998224, -5.000000000000000000 ) ) ;
#227 = VERTEX_POINT ( 'NONE', #155 ) ;
#228 = VECTOR ( 'NONE', #61, 1000.000000000000000 ) ;
#229 = DIRECTION ( 'NONE',  ( -0.7071067811865475727, -0.7071067811865474617, 0.000000000000000000 ) ) ;
#230 = ORIENTED_EDGE ( 'NONE', *, *, #277, .T. ) ;
#231 = ORIENTED_EDGE ( 'NONE', *, *, #277, .F. ) ;
#232 = DIRECTION ( 'NONE',  ( 0.7071067811865475727, 0.7071067811865474617, 0.000000000000000000 ) ) ;
#233 = DIRECTION ( 'NONE',  ( 1.000000000000000000, -4.857225732735059864E-17, 0.000000000000000000 ) ) ;
#234 = EDGE_LOOP ( 'NONE', ( #122, #236, #131, #158 ) ) ;
#235 = DIRECTION ( 'NONE',  ( -0.000000000000000000, 0.000000000000000000, -1.000000000000000000 ) ) ;
#236 = ORIENTED_EDGE ( 'NONE', *, *, #154, .F. ) ;
#237 = DIRECTION ( 'NONE',  ( 1.734723475976807094E-16, 1.000000000000000000, -0.000000000000000000 ) ) ;
#238 = ORIENTED_EDGE ( 'NONE', *, *, #246, .F. ) ;
#239 = DIRECTION ( 'NONE',  ( 1.000000000000000000, 0.000000000000000000, 0.000000000000000000 ) ) ;
#240 = COORDINATED_UNIVERSAL_TIME_OFFSET ( 8, 0, .AHEAD. ) ;
#241 = CC_DESIGN_PERSON_AND_ORGANIZATION_ASSIGNMENT ( #192, #22, ( #163 ) ) ;
#242 = CARTESIAN_POINT ( 'NONE',  ( -4.999999999999999112, 5.000000000000001776, -5.000000000000000000 ) ) ;
#243 = CALENDAR_DATE ( 2020, 22, 12 ) ;
#244 = VECTOR ( 'NONE', #309, 1000.000000000000000 ) ;
#245 = CALENDAR_DATE ( 2020, 22, 12 ) ;
#246 = EDGE_CURVE ( 'NONE', #5, #227, #262, .T. ) ;
#247 = DATE_AND_TIME ( #245, #67 ) ;
#248 = ORIENTED_EDGE ( 'NONE', *, *, #264, .T. ) ;
#249 = PRODUCT ( 'BK7-LPBSC-10-405', 'BK7-LPBSC-10-405', '', ( #215 ) ) ;
#250 = VECTOR ( 'NONE', #261, 1000.000000000000000 ) ;
#251 = CARTESIAN_POINT ( 'NONE',  ( -4.999999999999999112, -5.000000000000000000, -5.000000000000000000 ) ) ;
#252 = CC_DESIGN_DATE_AND_TIME_ASSIGNMENT ( #118, #272, ( #196 ) ) ;
#253 = ADVANCED_FACE ( 'NONE', ( #265 ), #284, .F. ) ;
#254 = VERTEX_POINT ( 'NONE', #16 ) ;
#255 = FACE_OUTER_BOUND ( 'NONE', #308, .T. ) ;
#256 = CARTESIAN_POINT ( 'NONE',  ( -4.999999999999999112, -5.000000000000000000, -5.000000000000000000 ) ) ;
#257 = AXIS2_PLACEMENT_3D ( 'NONE', #109, #287, #128 ) ;
#258 = ORIENTED_EDGE ( 'NONE', *, *, #154, .T. ) ;
#259 = ORGANIZATION ( 'UNSPECIFIED', 'UNSPECIFIED', '' ) ;
#260 = CARTESIAN_POINT ( 'NONE',  ( -4.999999999999999112, 5.000000000000001776, 5.000000000000000000 ) ) ;
#261 = DIRECTION ( 'NONE',  ( -0.000000000000000000, 0.000000000000000000, -1.000000000000000000 ) ) ;
#262 = LINE ( 'NONE', #43, #320 ) ;
#263 = ORIENTED_EDGE ( 'NONE', *, *, #169, .T. ) ;
#264 = EDGE_CURVE ( 'NONE', #208, #156, #132, .T. ) ;
#265 = FACE_OUTER_BOUND ( 'NONE', #204, .T. ) ;
#266 = APPROVAL_PERSON_ORGANIZATION ( #221, #73, #24 ) ;
#267 = DIRECTION ( 'NONE',  ( 0.000000000000000000, -0.000000000000000000, 1.000000000000000000 ) ) ;
#268 = APPLICATION_PROTOCOL_DEFINITION ( 'international standard', 'config_control_design', 1994, #186 ) ;
#269 = APPROVAL_ROLE ( '' ) ;
#270 = AXIS2_PLACEMENT_3D ( 'NONE', #160, #189, #267 ) ;
#271 = DIRECTION ( 'NONE',  ( 2.220446049250313081E-16, 1.000000000000000000, 0.000000000000000000 ) ) ;
#272 = DATE_TIME_ROLE ( 'classification_date' ) ;
#273 = VECTOR ( 'NONE', #235, 1000.000000000000000 ) ;
#274 = VECTOR ( 'NONE', #237, 1000.000000000000000 ) ;
#275 = CARTESIAN_POINT ( 'NONE',  ( -4.999999999999999112, -5.000000000000000000, 5.000000000000000000 ) ) ;
#276 = PRODUCT_DEFINITION_SHAPE ( 'NONE', 'NONE',  #314 ) ;
#277 = EDGE_CURVE ( 'NONE', #227, #64, #39, .T. ) ;
#278 = LINE ( 'NONE', #141, #200 ) ;
#279 = VERTEX_POINT ( 'NONE', #203 ) ;
#280 = DIRECTION ( 'NONE',  ( 1.000000000000000000, 0.000000000000000000, 0.000000000000000000 ) ) ;
#281 = FACE_OUTER_BOUND ( 'NONE', #129, .T. ) ;
#282 = ORIENTED_EDGE ( 'NONE', *, *, #149, .T. ) ;
#283 = LINE ( 'NONE', #303, #244 ) ;
#284 = PLANE ( 'NONE',  #19 ) ;
#285 = ORIENTED_EDGE ( 'NONE', *, *, #194, .F. ) ;
#286 = CC_DESIGN_APPROVAL ( #168, ( #196 ) ) ;
#287 = DIRECTION ( 'NONE',  ( -0.000000000000000000, 0.000000000000000000, 1.000000000000000000 ) ) ;
#288 = LINE ( 'NONE', #159, #35 ) ;
#289 = CARTESIAN_POINT ( 'NONE',  ( 5.000000000000002665, 5.000000000000000000, 5.000000000000000000 ) ) ;
#290 = DIRECTION ( 'NONE',  ( 0.000000000000000000, 0.000000000000000000, 1.000000000000000000 ) ) ;
#291 = ADVANCED_FACE ( 'NONE', ( #281 ), #59, .T. ) ;
#292 = VECTOR ( 'NONE', #85, 1000.000000000000000 ) ;
#293 = CARTESIAN_POINT ( 'NONE',  ( -5.000000000000000888, -4.999999999999998224, 5.000000000000000000 ) ) ;
#294 = APPROVAL_ROLE ( '' ) ;
#295 = SHAPE_DEFINITION_REPRESENTATION ( #276, #115 ) ;
#296 = CARTESIAN_POINT ( 'NONE',  ( 5.000000000000000888, 5.000000000000001776, -5.000000000000000000 ) ) ;
#297 = CARTESIAN_POINT ( 'NONE',  ( 5.000000000000000888, 5.000000000000001776, 5.000000000000000000 ) ) ;
#298 = EDGE_CURVE ( 'NONE', #126, #156, #193, .T. ) ;
#299 = CARTESIAN_POINT ( 'NONE',  ( -5.000000000000000888, -4.999999999999998224, -5.000000000000000000 ) ) ;
#300 = ORIENTED_EDGE ( 'NONE', *, *, #15, .T. ) ;
#301 = VECTOR ( 'NONE', #139, 1000.000000000000000 ) ;
#302 = CARTESIAN_POINT ( 'NONE',  ( 5.000000000000000888, 5.000000000000001776, -5.000000000000000000 ) ) ;
#303 = CARTESIAN_POINT ( 'NONE',  ( 5.000000000000002665, 5.000000000000000000, -5.000000000000000000 ) ) ;
#304 = ORIENTED_EDGE ( 'NONE', *, *, #45, .T. ) ;
#305 = ADVANCED_FACE ( 'NONE', ( #112 ), #166, .F. ) ;
#306 = CARTESIAN_POINT ( 'NONE',  ( 0.000000000000000000, 0.000000000000000000, -5.000000000000000000 ) ) ;
#307 = LINE ( 'NONE', #260, #273 ) ;
#308 = EDGE_LOOP ( 'NONE', ( #300, #184, #104 ) ) ;
#309 = DIRECTION ( 'NONE',  ( -0.7071067811865475727, -0.7071067811865474617, 0.000000000000000000 ) ) ;
#310 = CC_DESIGN_APPROVAL ( #190, ( #314 ) ) ;
#311 = LINE ( 'NONE', #157, #228 ) ;
#312 = VERTEX_POINT ( 'NONE', #242 ) ;
#313 = CARTESIAN_POINT ( 'NONE',  ( 5.000000000000000888, 5.000000000000001776, 5.000000000000000000 ) ) ;
#314 = PRODUCT_DEFINITION ( 'UNKNOWN', '', #163, #82 ) ;
#315 = ADVANCED_FACE ( 'NONE', ( #220 ), #319, .F. ) ;
#316 = DIRECTION ( 'NONE',  ( 0.000000000000000000, 0.000000000000000000, 1.000000000000000000 ) ) ;
#317 = VECTOR ( 'NONE', #233, 1000.000000000000000 ) ;
#318 = LOCAL_TIME ( 11, 9, 55.00000000000000000, #240 ) ;
#319 = PLANE ( 'NONE',  #270 ) ;
#320 = VECTOR ( 'NONE', #229, 1000.000000000000000 ) ;
#321 = PERSON_AND_ORGANIZATION ( #173, #259 ) ;
ENDSEC;
END-ISO-10303-21;
